Diyez.Net - Şarkı Sözleri, Video Klipler, Gitar Akorları, Gitar Tabları

Dalgalandım Da Duruldum Gitar Tabları


Dalgalandım Da Duruldum Gitar Tabı


İntro: 
 
E|----------------------------------------| 
B|--------8-----8----7--7-7-7-------------| 
G|--------9-----9----9--9-9-9----7--7-7-7-|     (4x) 
D|--------9-----9----9--9-9-9----9--9-9-9-| 
A|--9-9-----x-x---------------------------| 
E|----------------------------------------| 
 
E5-d5-c#5-c5 
E|--------------------------------| 
B|----7-8-8.-7----7---------7-----| 
G|-------------9-----9-7---9---7--| 
D|--------------------------------|  => akor ve tab birlikte çalınacak 
A|--------------------------------| 
E|--------------------------------| 
 
İntrodan sonraki geçiş: 
 
E|-----------------------------------------------| 
B|-----------------------------------------------| 
G|----12-12-12--11-11-11--9-9-9--7-7--5-5--4-4---| 
D|-----------------------------------------------| 
A|----10-10-10--9--9--9---7-7-7--5-5--3-3--2-2---| 
E|-----------------------------------------------| 
 
Sözde sadece bas oluduğu için power basabilirsiniz  güzel oluo gripin - dalgalandım da duruldum - tab (versiyon 1) 
 
Bm5                A5  C5    bm5     | 
Ne olursun güzelim sev-sen beni      |    (2x) 
Bm5         A5        G5            | 
Yar deyip de sinene sarsan beni      | 
Em            D     C   Am 
Bir gün öldüreceksiiin en sonunda sen beni 
C             Am    Em 
En sonunda sen beni  . 
 
Ara geçiş: 
 
E|----------------------------------------| 
B|----------------------------------------| 
G|----2-2-2---4-4-4--5-5-5---12-12--11-11-| 
D|----2-2-2-------------------------------| 
A|----0-0-2---2-2-2--3-3-3---10-10--9--9--| 
E|----------------------------------------| 
 
 
E5 
Dalgalandım da duruldum 
D5 
Koştum ardından yoruldum 
C#5                   C5 
Binlerce güzel sevdim de, sevdim de 
A5     bm5    C       A5     C5   D5     bm5 
En son sana vuruldum, en son sana vuruldum 
 
Yaktın yıktın kül ettin, erittin beni 
Mecnuna döndürdün, mahvettin beni 
Aşık gibi sevmezsen, kardeş gibi sev beni
Etiketler: ,

Gitar Tabları

DİYEZ.NET'TE ARA

DİĞERLERİ NE ARIYOR?


Açılış Sayfam Yap Açılış Sayfam Yap Sık Kullanılanlara Ekle Sık Kullanılanlara Ekle

İlgili Siteler: Yerli Video Klipler | Canlı Radyolar | Canlı TV İzle | Radyo Frekansları | Uydu Frekansları | Rüya Tabirleri | Saat Kaç

Video Klipler | Gitar Akorları | Gitar Tabları | Şarkı Sözleri
İletişim | Gizlilik İlkeleri | Kullanım Şartları

diyez.info © 2008-2018