Diyez.Net - Şarkı Sözleri, Video Klipler, Gitar Akorları, Gitar Tabları

Memleketim Gitar Tabları


Memleketim Gitar Tabı


E------------------------------------------------------------0 
B-------1------------------0--------------------0-1-0-1-3-- 
G-----------2--2-2-2--1-2---1--1-1-1--2-1-2-------------- 
D--2-2------------------------------------------------------- 
A------------------------------------------------------------- 
E------------------------------------------------------------- 
 
 
 
 
 
E-------0-0-1-0--------0-1--0-------------------------------- 
B--1-3----------3-3--1-3-------3-1-1---0--1-1-0---0-0----------- 
G---------------------------------2--------2-------2----1-2- 
D----------------------------------------------------------- 
A----------------------------------------------------------- 
E----------------------------------------------------------- 
 
2x
Etiketler: , , , , memleketim tab, , , Memleketim klasik gitar tab, memleketim gitar, , memleketim gitar solo,

Gitar Tabları

DİYEZ.NET'TE ARA

DİĞERLERİ NE ARIYOR?


Açılış Sayfam Yap Açılış Sayfam Yap Sık Kullanılanlara Ekle Sık Kullanılanlara Ekle

İlgili Siteler: Yerli Video Klipler | Canlı Radyolar | Canlı TV İzle | Radyo Frekansları | Uydu Frekansları | Rüya Tabirleri | Saat Kaç

Video Klipler | Gitar Akorları | Gitar Tabları | Şarkı Sözleri
İletişim | Gizlilik İlkeleri | Kullanım Şartları

diyez.info © 2008-2018