Diyez.Net - Şarkı Sözleri, Video Klipler, Gitar Akorları, Gitar Tabları

Hasta Gitar Tabları


Hasta Gitar Tabı


E --------0-2--0-2-3-2--------------- 
B 0-1-3------------------------------ 
G ----------------------------------- 
 
E -------0-2---0-2-3-0--------------- 
B 0-1-3------------------------------ 
G ----------------------------------- 
 
E ---------0----0-2-0-----0-2---0---- 
B ---0-1-3----3-------3------3----1-0 
G -2--------------------------------- 
 
İleri perdelere taşınabilir.kolay gelsin :) 
 
Yazan : mert karaçoban

Gitar Tabları

DİYEZ.NET'TE ARA

DİĞERLERİ NE ARIYOR?


Açılış Sayfam Yap Açılış Sayfam Yap Sık Kullanılanlara Ekle Sık Kullanılanlara Ekle

İlgili Siteler: Yerli Video Klipler | Canlı Radyolar | Canlı TV İzle | Radyo Frekansları | Uydu Frekansları | Rüya Tabirleri | Saat Kaç

Video Klipler | Gitar Akorları | Gitar Tabları | Şarkı Sözleri
İletişim | Gizlilik İlkeleri | Kullanım Şartları

diyez.info © 2008-2018