Diyez.Net - Şarkı Sözleri, Video Klipler, Gitar Akorları, Gitar Tabları

Portofino Gitar Tabları


Portofino Gitar Tabı


Portofino

E---1-3-5-6-5-3-1-3-------------------------------------------
B-----------------------------------------------------
-----------------------------------------------------
-----------------------------------------------------
-----------------------------------------------------
E-----------------------------------------------------

E-----------------------------------------------------
B--0-1-3-5-3-1-0-1--------------------------------------------
G--2---------------------------------------------------
-----------------------------------------------------
-----------------------------------------------------
-----------------------------------------------------

E-----------------------------------------------------
B--0-1-3-1-0-----------------------------------------------
G---2--------------------------------------------------
-----------------------------------------------------
-----------------------------------------------------
-----------------------------------------------------

E-----------------------------------------------------
B--0-1-3-1-0-----------------------------------------------
G---2--------------------------------------------------
-----------------------------------------------------
-----------------------------------------------------
-----------------------------------------------------

Trgood
Etiketler: portofino akor, , , , , portofino gitar, , portofino solo, , portofino gitar nota, gitar portofino, portofino solo akor

Gitar Tabları

DİYEZ.NET'TE ARA


Aramak istediğiniz içeriğin türünü seçin, daha sonra şarkı veya şarkıcı adını girin ve "Ara" butonuna basın.

DİĞERLERİ NE ARIYOR?


Açılış Sayfam Yap Açılış Sayfam Yap Sık Kullanılanlara Ekle Sık Kullanılanlara Ekle

İlgili Siteler: Yerli Video Klipler | Canlı Radyolar | Canlı TV İzle | Radyo Frekansları | Uydu Frekansları | Rüya Tabirleri | Saat Kaç

Video Klipler | Gitar Akorları | Gitar Tabları | Şarkı Sözleri
İletişim | Gizlilik İlkeleri | Kullanım Şartları

diyez.info © 2008-2014