Diyez.Net - Şarkı Sözleri, Video Klipler, Gitar Akorları, Gitar Tabları

Ajda Pekkan - Uykusuz Her Gece Gitar Tabları


Uykusuz Her Gece Gitar Tabı


E---------------------------0-0-2-3-0-0-2-3---3-2-0---------
A--0-0-2-3~~0-0-2-3-------------------------2---------------
D--------------------4p5-2----------------------------------
G-----------------------------------------------------------
B-----------------------------------------------------------
e-----------------------------------------------------------

E---------------------------0-0-2-3-2-0---------------------
A--0-0-2-3~~0-0-2-3-----------------------------------------
D--------------------4p5-2---------------4p5-2-4p5-2-1-2----
G-----------------------------------------------------------
B-----------------------------------------------------------
e-----------------------------------------------------------

Tam ona Sarılırken        gördüm pencereden

E-----------0--0----------------------0-0-------------------
A-----------2--2----------------------2-2-------------------
D-----------2--2----------------------2-2-------------------
G-----------0--0---8-12---------------0-0--8-12-------------
B------------------8-12--------------------8-12-------------
e------------------8-12--------------------8-12-------------

Gülünecek ne vardı       gülüyordun ya öperken

E-----------0--0------------------5--5-----------5-5--------
A-----------2--2------------------7--7-----------7-7--------
D-----------2--2------------------7--7-----------7-7--------
G-----------0--0--8-12-------------------12-8---------------
B-----------------8-12-------------------12-8---------------
e-----------------8-12-------------------12-8---------------

Bu gece seninle       Olalım canım derken

E-5-5----------5-5-----0-0---------0-0----------------------
A-7-7----------7-7-----2-2---------2-2----------------------
D-7-7----------7-7-----2-2---------2-2----------------------
G-------12-8-----------0-0---8-12--0-0----------------------
B-------12-8-----------------8-12---------------------------
e-------12-8-----------------8-12---------------------------

sildim seni o anda kalbimden

E---------------------------5--5----------------------------
A------------5--3--3--1--1--7--7----------------------------
D------------7--5--5--3--3--7--7----------------------------
G------------7--5--5--3--3----------------------------------
B-----------------------------------------------------------
e-----------------------------------------------------------

Em
Neydi kopan içimden
Em
Yıllar zincirinden
Em
Öldüm sanki yaşarken
Em
Kaçtım hemen o sahneden
Am
Kendimi buldum ben çalıştığım bu yerde
Em
Azalır acılarda belki gitgide

Ajda Pekkan için sitemizde bulunan tüm şarkı sözleri, video klipler, gitar akorları ve gitar tablarını listelemek için buraya tıklayınız.

Ajda Pekkan Gitar Tabları

DİYEZ.NET'TE ARA


Aramak istediğiniz içeriğin türünü seçin, daha sonra şarkı veya şarkıcı adını girin ve "Ara" butonuna basın.

DİĞERLERİ NE ARIYOR?


Açılış Sayfam Yap Açılış Sayfam Yap Sık Kullanılanlara Ekle Sık Kullanılanlara Ekle

İlgili Siteler: Yerli Video Klipler | Canlı Radyolar | Canlı TV İzle | Radyo Frekansları | Uydu Frekansları | Rüya Tabirleri | Saat Kaç

Video Klipler | Gitar Akorları | Gitar Tabları | Şarkı Sözleri
İletişim | Gizlilik İlkeleri | Kullanım Şartları

diyez.info © 2008-2018