Diyez.Net - Şarkı Sözleri, Video Klipler, Gitar Akorları, Gitar Tabları

Ciwan Haco - Hevale Evindar Gitar Tabları


Hevale Evindar Gitar Tabı


--2--3--5--5--5--5--2--3--2--5--3--2---------------------- 
--------------------------------------6------------------- 
---------------------------------------------------------- 
---------------------------------------------------------- 
---------------------------------------------------------- 
---------------------------------------------------------- 
 
--2--3--5--5--5--5--2--3--2--5--3--2---------------------- 
--------------------------------------6------------------- 
---------------------------------------------------------- 
---------------------------------------------------------- 
---------------------------------------------------------- 
---------------------------------------------------------- 
 
--3--5--7--7--7--7--3--5--3---7--7--7--3--5--5--5--5--2--3 
---------------------------------------------------------- 
---------------------------------------------------------- 
---------------------------------------------------------- 
---------------------------------------------------------- 
---------------------------------------------------------- 
 
--2--3--5--5--5--5--2--3--2--5--3--2--0------------------- 
---------------------------------------------------------- 
---------------------------------------------------------- 
---------------------------------------------------------- 
---------------------------------------------------------- 
---------------------------------------------------------- 
 
Arkadaşlar daha acemiyim :) eger yanlıssa lutfen maruz gorun   
Tesekkurler  . 
Saygılarımla    ) 
Not: eger yanlıssa dogrusunu yazarsanız sevinirim  .

Ciwan Haco için sitemizde bulunan tüm şarkı sözleri, video klipler, gitar akorları ve gitar tablarını listelemek için buraya tıklayınız.

Ciwan Haco Gitar Tabları

DİYEZ.NET'TE ARA


Aramak istediğiniz içeriğin türünü seçin, daha sonra şarkı veya şarkıcı adını girin ve "Ara" butonuna basın.

DİĞERLERİ NE ARIYOR?


Açılış Sayfam Yap Açılış Sayfam Yap Sık Kullanılanlara Ekle Sık Kullanılanlara Ekle

İlgili Siteler: Yerli Video Klipler | Canlı Radyolar | Canlı TV İzle | Radyo Frekansları | Uydu Frekansları | Rüya Tabirleri | Saat Kaç

Video Klipler | Gitar Akorları | Gitar Tabları | Şarkı Sözleri
İletişim | Gizlilik İlkeleri | Kullanım Şartları

diyez.info © 2008-2017